  0
SECTION
  2
HEADER
  9
$ACADVER
  1
AC1015
  9
$ACADMAINTVER
 70
     6
  9
$DWGCODEPAGE
  3
ANSI_1254
  9
$INSBASE
 10
0.0
 20
0.0
 30
0.0
  9
$EXTMIN
 10
0.0
 20
0.0
 30
0.0
  9
$EXTMAX
 10
279.4
 20
215.9
 30
0.0
  9
$LIMMIN
 10
0.0
 20
0.0
  9
$LIMMAX
 10
279.4
 20
215.9
  9
$ORTHOMODE
 70
     0
  9
$REGENMODE
 70
     1
  9
$FILLMODE
 70
     1
  9
$QTEXTMODE
 70
     0
  9
$MIRRTEXT
 70
     1
  9
$LTSCALE
 40
1.0
  9
$ATTMODE
 70
     1
  9
$TEXTSIZE
 40
3.5
  9
$TRACEWID
 40
1.0
  9
$TEXTSTYLE
  7
Standard
  9
$CLAYER
  8
0
  9
$CELTYPE
  6
ByLayer
  9
$CECOLOR
 62
   256
  9
$CELTSCALE
 40
1.0
  9
$DISPSILH
 70
     0
  9
$DIMSCALE
 40
1.0
  9
$DIMASZ
 40
3.5
  9
$DIMEXO
 40
1.0
  9
$DIMDLI
 40
3.75
  9
$DIMRND
 40
0.0
  9
$DIMDLE
 40
0.0
  9
$DIMEXE
 40
1.0
  9
$DIMTP
 40
0.0
  9
$DIMTM
 40
0.0
  9
$DIMTXT
 40
3.5
  9
$DIMCEN
 40
2.5
  9
$DIMTSZ
 40
0.0
  9
$DIMTOL
 70
     0
  9
$DIMLIM
 70
     0
  9
$DIMTIH
 70
     1
  9
$DIMTOH
 70
     1
  9
$DIMSE1
 70
     0
  9
$DIMSE2
 70
     0
  9
$DIMTAD
 70
     1
  9
$DIMZIN
 70
     0
  9
$DIMBLK
  1

  9
$DIMASO
 70
     1
  9
$DIMSHO
 70
     1
  9
$DIMPOST
  1

  9
$DIMAPOST
  1

  9
$DIMALT
 70
     0
  9
$DIMALTD
 70
     3
  9
$DIMALTF
 40
0.0393700787
  9
$DIMLFAC
 40
1.0
  9
$DIMTOFL
 70
     1
  9
$DIMTVP
 40
0.0
  9
$DIMTIX
 70
     0
  9
$DIMSOXD
 70
     0
  9
$DIMSAH
 70
     0
  9
$DIMBLK1
  1

  9
$DIMBLK2
  1

  9
$DIMSTYLE
  2
ISO-25
  9
$DIMCLRD
 70
     0
  9
$DIMCLRE
 70
     0
  9
$DIMCLRT
 70
     0
  9
$DIMTFAC
 40
1.0
  9
$DIMGAP
 40
1.524
  9
$DIMJUST
 70
     0
  9
$DIMSD1
 70
     0
  9
$DIMSD2
 70
     0
  9
$DIMTOLJ
 70
     0
  9
$DIMTZIN
 70
     0
  9
$DIMALTZ
 70
     0
  9
$DIMALTTZ
 70
     0
  9
$DIMUPT
 70
     0
  9
$DIMDEC
 70
     2
  9
$DIMTDEC
 70
     2
  9
$DIMALTU
 70
     2
  9
$DIMALTTD
 70
     3
  9
$DIMTXSTY
  7
Standard
  9
$DIMAUNIT
 70
     0
  9
$DIMADEC
 70
     2
  9
$DIMALTRND
 40
0.0
  9
$DIMAZIN
 70
     0
  9
$DIMDSEP
 70
    44
  9
$DIMATFIT
 70
     3
  9
$DIMFRAC
 70
     0
  9
$DIMLDRBLK
  1

  9
$DIMLUNIT
 70
     2
  9
$DIMLWD
 70
    -2
  9
$DIMLWE
 70
    -2
  9
$DIMTMOVE
 70
     0
  9
$LUNITS
 70
     2
  9
$LUPREC
 70
     2
  9
$SKETCHINC
 40
1.0
  9
$FILLETRAD
 40
10.0
  9
$AUNITS
 70
     0
  9
$AUPREC
 70
     2
  9
$MENU
  1
.
  9
$ELEVATION
 40
0.0
  9
$PELEVATION
 40
0.0
  9
$THICKNESS
 40
0.0
  9
$LIMCHECK
 70
     0
  9
$CHAMFERA
 40
0.0
  9
$CHAMFERB
 40
0.0
  9
$CHAMFERC
 40
0.0
  9
$CHAMFERD
 40
0.0
  9
$SKPOLY
 70
     0
  9
$TDCREATE
 40
2459935.699359259
  9
$TDUCREATE
 40
2459935.574359259
  9
$TDUPDATE
 40
2459935.699359433
  9
$TDUUPDATE
 40
2459935.574359433
  9
$TDINDWG
 40
0.0000000116
  9
$TDUSRTIMER
 40
0.0000000116
  9
$USRTIMER
 70
     1
  9
$ANGBASE
 50
0.0
  9
$ANGDIR
 70
     0
  9
$PDMODE
 70
     0
  9
$PDSIZE
 40
-1.0
  9
$PLINEWID
 40
0.0
  9
$SPLFRAME
 70
     0
  9
$SPLINETYPE
 70
     6
  9
$SPLINESEGS
 70
     8
  9
$HANDSEED
  5
ED
  9
$SURFTAB1
 70
     6
  9
$SURFTAB2
 70
     6
  9
$SURFTYPE
 70
     6
  9
$SURFU
 70
     6
  9
$SURFV
 70
     6
  9
$UCSBASE
  2

  9
$UCSNAME
  2

  9
$UCSORG
 10
0.0
 20
0.0
 30
0.0
  9
$UCSXDIR
 10
1.0
 20
0.0
 30
0.0
  9
$UCSYDIR
 10
0.0
 20
1.0
 30
0.0
  9
$UCSORTHOREF
  2

  9
$UCSORTHOVIEW
 70
     0
  9
$UCSORGTOP
 10
0.0
 20
0.0
 30
0.0
  9
$UCSORGBOTTOM
 10
0.0
 20
0.0
 30
0.0
  9
$UCSORGLEFT
 10
0.0
 20
0.0
 30
0.0
  9
$UCSORGRIGHT
 10
0.0
 20
0.0
 30
0.0
  9
$UCSORGFRONT
 10
0.0
 20
0.0
 30
0.0
  9
$UCSORGBACK
 10
0.0
 20
0.0
 30
0.0
  9
$PUCSBASE
  2

  9
$PUCSNAME
  2

  9
$PUCSORG
 10
0.0
 20
0.0
 30
0.0
  9
$PUCSXDIR
 10
1.0
 20
0.0
 30
0.0
  9
$PUCSYDIR
 10
0.0
 20
1.0
 30
0.0
  9
$PUCSORTHOREF
  2

  9
$PUCSORTHOVIEW
 70
     0
  9
$PUCSORGTOP
 10
0.0
 20
0.0
 30
0.0
  9
$PUCSORGBOTTOM
 10
0.0
 20
0.0
 30
0.0
  9
$PUCSORGLEFT
 10
0.0
 20
0.0
 30
0.0
  9
$PUCSORGRIGHT
 10
0.0
 20
0.0
 30
0.0
  9
$PUCSORGFRONT
 10
0.0
 20
0.0
 30
0.0
  9
$PUCSORGBACK
 10
0.0
 20
0.0
 30
0.0
  9
$USERI1
 70
     0
  9
$USERI2
 70
     0
  9
$USERI3
 70
     0
  9
$USERI4
 70
     0
  9
$USERI5
 70
     0
  9
$USERR1
 40
0.0
  9
$USERR2
 40
0.0
  9
$USERR3
 40
0.0
  9
$USERR4
 40
0.0
  9
$USERR5
 40
0.0
  9
$WORLDVIEW
 70
     1
  9
$SHADEDGE
 70
     3
  9
$SHADEDIF
 70
    70
  9
$TILEMODE
 70
     1
  9
$MAXACTVP
 70
    64
  9
$PINSBASE
 10
0.0
 20
0.0
 30
0.0
  9
$PLIMCHECK
 70
     0
  9
$PEXTMIN
 10
1.0000000000E+20
 20
1.0000000000E+20
 30
1.0000000000E+20
  9
$PEXTMAX
 10
-1.0000000000E+20
 20
-1.0000000000E+20
 30
-1.0000000000E+20
  9
$PLIMMIN
 10
0.0
 20
0.0
  9
$PLIMMAX
 10
420.0
 20
297.0
  9
$UNITMODE
 70
     0
  9
$VISRETAIN
 70
     1
  9
$PLINEGEN
 70
     0
  9
$PSLTSCALE
 70
     1
  9
$TREEDEPTH
 70
  3020
  9
$CMLSTYLE
  2
Standard
  9
$CMLJUST
 70
     0
  9
$CMLSCALE
 40
20.0
  9
$PROXYGRAPHICS
 70
     1
  9
$MEASUREMENT
 70
     1
  9
$CELWEIGHT
370
    -1
  9
$ENDCAPS
280
     0
  9
$JOINSTYLE
280
     0
  9
$LWDISPLAY
290
     1
  9
$INSUNITS
 70
     4
  9
$HYPERLINKBASE
  1

  9
$STYLESHEET
  1

  9
$XEDIT
290
     1
  9
$CEPSNTYPE
380
     0
  9
$PSTYLEMODE
290
     1
  9
$FINGERPRINTGUID
  2
{9836b13d-549e-404c-a4d5-2555c9058eae}
  9
$VERSIONGUID
  2
{FAEB1C32-E019-11D5-929B-00C0DF256EC4}
  9
$EXTNAMES
290
     1
  9
$PSVPSCALE
 40
0.0
  9
$OLESTARTUP
290
     0
  0
ENDSEC
  0
SECTION
  2
CLASSES
  0
CLASS
  1
ACDBDICTIONARYWDFLT
  2
AcDbDictionaryWithDefault
  3
ObjectDBX Classes
 90
        0
280
     0
281
     0
  0
CLASS
  1
VISUALSTYLE
  2
AcDbVisualStyle
  3
ObjectDBX Classes
 90
     4095
280
     0
281
     0
  0
CLASS
  1
MATERIAL
  2
AcDbMaterial
  3
ObjectDBX Classes
 90
     1153
280
     0
281
     0
  0
CLASS
  1
SCALE
  2
AcDbScale
  3
ObjectDBX Classes
 90
     1153
280
     0
281
     0
  0
CLASS
  1
TABLESTYLE
  2
AcDbTableStyle
  3
ObjectDBX Classes
 90
     4095
280
     0
281
     0
  0
CLASS
  1
MLEADERSTYLE
  2
AcDbMLeaderStyle
  3
ACDB_MLEADERSTYLE_CLASS
 90
     4095
280
     0
281
     0
  0
CLASS
  1
SUN
  2
AcDbSun
  3
SCENEOE
 90
     1153
280
     0
281
     0
  0
CLASS
  1
ACDBPLACEHOLDER
  2
AcDbPlaceHolder
  3
ObjectDBX Classes
 90
        0
280
     0
281
     0
  0
CLASS
  1
LAYOUT
  2
AcDbLayout
  3
ObjectDBX Classes
 90
        0
280
     0
281
     0
  0
ENDSEC
  0
SECTION
  2
TABLES
  0
TABLE
  2
VPORT
  5
8
330
0
100
AcDbSymbolTable
 70
     1
  0
VPORT
  5
29
330
8
100
AcDbSymbolTableRecord
100
AcDbViewportTableRecord
  2
*Active
 70
     0
 10
0.0
 20
0.0
 11
1.0
 21
1.0
 12
139.7
 22
107.95
 13
0.0
 23
0.0
 14
10.0
 24
10.0
 15
10.0
 25
10.0
 16
0.0
 26
0.0
 36
1.0
 17
0.0
 27
0.0
 37
0.0
 40
215.9
 41
1.2941176471
 42
50.0
 43
0.0
 44
0.0
 50
0.0
 51
0.0
 71
     0
 72
  2000
 73
     1
 74
     3
 75
     0
 76
     0
 77
     0
 78
     0
281
     0
 65
     1
110
0.0
120
0.0
130
0.0
111
1.0
121
0.0
131
0.0
112
0.0
122
1.0
132
0.0
 79
     0
146
0.0
  0
ENDTAB
  0
TABLE
  2
LTYPE
  5
5
330
0
100
AcDbSymbolTable
 70
     6
  0
LTYPE
  5
14
330
5
100
AcDbSymbolTableRecord
100
AcDbLinetypeTableRecord
  2
ByBlock
 70
     0
  3

 72
    65
 73
     0
 40
0.0
  0
LTYPE
  5
15
330
5
100
AcDbSymbolTableRecord
100
AcDbLinetypeTableRecord
  2
ByLayer
 70
     0
  3

 72
    65
 73
     0
 40
0.0
  0
LTYPE
  5
16
330
5
100
AcDbSymbolTableRecord
100
AcDbLinetypeTableRecord
  2
Continuous
 70
     0
  3
Solid line
 72
    65
 73
     0
 40
0.0
  0
LTYPE
  5
6E
330
5
100
AcDbSymbolTableRecord
100
AcDbLinetypeTableRecord
  2
HIDDEN
 70
     0
  3
Hidden __ __ __ __ __ __ __ __ __ __ __ __ __ __
 72
    65
 73
     2
 40
1.905
 49
1.27
 74
     0
 49
-0.635
 74
     0
  0
LTYPE
  5
6F
330
5
100
AcDbSymbolTableRecord
100
AcDbLinetypeTableRecord
  2
PHANTOM
 70
     0
  3
Phantom ______  __  __  ______  __  __  ______
 72
    65
 73
     6
 40
12.7
 49
6.35
 74
     0
 49
-1.27
 74
     0
 49
1.27
 74
     0
 49
-1.27
 74
     0
 49
1.27
 74
     0
 49
-1.27
 74
     0
  0
LTYPE
  5
70
330
5
100
AcDbSymbolTableRecord
100
AcDbLinetypeTableRecord
  2
CENTER
 70
     0
  3
Center ____ _ ____ _ ____ _ ____ _ ____ _ ____
 72
    65
 73
     4
 40
10.16
 49
6.35
 74
     0
 49
-1.27
 74
     0
 49
1.27
 74
     0
 49
-1.27
 74
     0
  0
LTYPE
  5
71
330
5
100
AcDbSymbolTableRecord
100
AcDbLinetypeTableRecord
  2
CENTERX2
 70
     0
  3
Center (2x) ________  __  ________  __  _____
 72
    65
 73
     4
 40
20.32
 49
12.7
 74
     0
 49
-2.54
 74
     0
 49
2.54
 74
     0
 49
-2.54
 74
     0
  0
LTYPE
  5
72
330
5
100
AcDbSymbolTableRecord
100
AcDbLinetypeTableRecord
  2
DOT2
 70
     0
  3
Dot (.5x) ........................................
 72
    65
 73
     2
 40
0.635
 49
0.0
 74
     0
 49
-0.635
 74
     0
  0
ENDTAB
  0
TABLE
  2
LAYER
  5
2
330
0
100
AcDbSymbolTable
 70
    17
  0
LAYER
  5
10
330
2
100
AcDbSymbolTableRecord
100
AcDbLayerTableRecord
  2
0
 70
     0
 62
     7
  6
Continuous
370
    -3
390
F
  0
LAYER
  5
73
330
2
100
AcDbSymbolTableRecord
100
AcDbLayerTableRecord
  2
FORMAT
 70
     0
 62
     7
  6
Continuous
370
    -3
390
F
  0
LAYER
  5
74
330
2
100
AcDbSymbolTableRecord
100
AcDbLayerTableRecord
  2
YARDIMCI_GEOMETRI
 70
     0
 62
    -6
  6
Continuous
290
     0
370
    -3
390
F
  0
LAYER
  5
75
330
2
100
AcDbSymbolTableRecord
100
AcDbLayerTableRecord
  2
SAYFA_CERCEVESI
 70
     0
 62
     7
  6
Continuous
370
    25
390
F
  0
LAYER
  5
76
330
2
100
AcDbSymbolTableRecord
100
AcDbLayerTableRecord
  2
ANTET
 70
     0
 62
     7
  6
Continuous
370
    -3
390
F
  0
LAYER
  5
77
330
2
100
AcDbSymbolTableRecord
100
AcDbLayerTableRecord
  2
OLCU
 70
     0
 62
   150
  6
Continuous
370
    -3
390
F
  0
LAYER
  5
78
330
2
100
AcDbSymbolTableRecord
100
AcDbLayerTableRecord
  2
METIN
 70
     0
 62
    96
  6
Continuous
370
    -3
390
F
  0
LAYER
  5
79
330
2
100
AcDbSymbolTableRecord
100
AcDbLayerTableRecord
  2
BALON
 70
     0
 62
     5
  6
Continuous
370
    -3
390
F
  0
LAYER
  5
7A
330
2
100
AcDbSymbolTableRecord
100
AcDbLayerTableRecord
  2
VURGU
 70
     0
 62
     7
  6
Continuous
370
    -3
390
F
  0
LAYER
  5
7B
330
2
100
AcDbSymbolTableRecord
100
AcDbLayerTableRecord
  2
SILIK
 70
     0
 62
     7
  6
Continuous
370
    -3
390
F
  0
LAYER
  5
7C
330
2
100
AcDbSymbolTableRecord
100
AcDbLayerTableRecord
  2
MODEL
 70
     0
 62
     7
  6
Continuous
370
    -3
390
F
  0
LAYER
  5
7D
330
2
100
AcDbSymbolTableRecord
100
AcDbLayerTableRecord
  2
DETAYLANDıRMA
 70
     0
 62
   190
  6
Continuous
370
    -3
390
F
  0
LAYER
  5
7E
330
2
100
AcDbSymbolTableRecord
100
AcDbLayerTableRecord
  2
TOLERANS
 70
     0
 62
   230
  6
Continuous
370
    -3
390
F
  0
LAYER
  5
7F
330
2
100
AcDbSymbolTableRecord
100
AcDbLayerTableRecord
  2
MERKEZ_CIZGILERI
 70
     0
 62
    30
  6
Continuous
370
    -3
390
F
  0
LAYER
  5
80
330
2
100
AcDbSymbolTableRecord
100
AcDbLayerTableRecord
  2
KESIT-DETAY_CIZGILERI
 70
     0
 62
     7
  6
Continuous
370
    -3
390
F
  0
LAYER
  5
81
330
2
100
AcDbSymbolTableRecord
100
AcDbLayerTableRecord
  2
\U+041E\U+0421\U+0415\U+0412\U+042B\U+0415
 70
     0
 62
     7
  6
Continuous
370
    -3
390
F
  0
LAYER
  5
82
330
2
100
AcDbSymbolTableRecord
100
AcDbLayerTableRecord
  2
\U+0412\U+041E\U+0414\U+042F\U+041D\U+042B\U+0415_\U+0417\U+041D\U+0410\U+041A\U+0418
 70
     0
 62
    11
  6
Continuous
370
    -3
390
F
  0
ENDTAB
  0
TABLE
  2
STYLE
  5
3
330
0
100
AcDbSymbolTable
 70
     1
  0
STYLE
  5
11
330
3
100
AcDbSymbolTableRecord
100
AcDbTextStyleTableRecord
  2
Standard
 70
     0
 40
0.0
 41
1.0
 50
0.0
 71
     0
 42
3.5
  3
txt
  4

  0
ENDTAB
  0
TABLE
  2
VIEW
  5
6
330
0
100
AcDbSymbolTable
 70
     0
  0
ENDTAB
  0
TABLE
  2
UCS
  5
7
330
0
100
AcDbSymbolTable
 70
     0
  0
ENDTAB
  0
TABLE
  2
APPID
  5
9
330
0
100
AcDbSymbolTable
 70
     1
  0
APPID
  5
12
330
9
100
AcDbSymbolTableRecord
100
AcDbRegAppTableRecord
  2
ACAD
 70
     0
  0
ENDTAB
  0
TABLE
  2
DIMSTYLE
  5
A
330
0
100
AcDbSymbolTable
 70
     1
100
AcDbDimStyleTable
  0
DIMSTYLE
105
27
330
A
100
AcDbSymbolTableRecord
100
AcDbDimStyleTableRecord
  2
ISO-25
 70
     0
 41
2.5
 42
0.625
 43
3.75
 44
1.25
 73
     0
 74
     0
 77
     1
 78
     8
140
2.5
141
2.5
143
0.0393700787
147
0.625
171
     3
172
     1
178
     0
271
     2
272
     2
274
     3
278
    44
283
     0
284
     8
340
11
  0
ENDTAB
  0
TABLE
  2
BLOCK_RECORD
  5
1
330
0
100
AcDbSymbolTable
 70
     5
  0
BLOCK_RECORD
  5
1F
330
1
100
AcDbSymbolTableRecord
100
AcDbBlockTableRecord
  2
*Model_Space
340
22
  0
BLOCK_RECORD
  5
1B
330
1
100
AcDbSymbolTableRecord
100
AcDbBlockTableRecord
  2
*Paper_Space
340
1E
  0
BLOCK_RECORD
  5
23
330
1
100
AcDbSymbolTableRecord
100
AcDbBlockTableRecord
  2
*Paper_Space0
340
26
  0
BLOCK_RECORD
  5
97
330
1
100
AcDbSymbolTableRecord
100
AcDbBlockTableRecord
  2
SW_CENTERMARKSYMBOL_0
340
0
102
{BLKREFS
331
A2
102
}
  0
BLOCK_RECORD
  5
AC
330
1
100
AcDbSymbolTableRecord
100
AcDbBlockTableRecord
  2
SW_CENTERMARKSYMBOL_1
340
0
102
{BLKREFS
331
B7
102
}
  0
BLOCK_RECORD
  5
BF
330
1
100
AcDbSymbolTableRecord
100
AcDbBlockTableRecord
  2
SW_CENTERMARKSYMBOL_2
340
0
102
{BLKREFS
331
CA
102
}
  0
BLOCK_RECORD
  5
D2
330
1
100
AcDbSymbolTableRecord
100
AcDbBlockTableRecord
  2
SW_CENTERMARKSYMBOL_3
340
0
102
{BLKREFS
331
DD
102
}
  0
ENDTAB
  0
ENDSEC
  0
SECTION
  2
BLOCKS
  0
BLOCK
  5
20
330
1F
100
AcDbEntity
  8
0
100
AcDbBlockBegin
  2
*Model_Space
 70
     0
 10
0.0
 20
0.0
 30
0.0
  3
*Model_Space
  1

  0
ENDBLK
  5
21
330
1F
100
AcDbEntity
  8
0
100
AcDbBlockEnd
  0
BLOCK
  5
1C
330
1B
100
AcDbEntity
 67
     1
  8
0
100
AcDbBlockBegin
  2
*Paper_Space
 70
     0
 10
0.0
 20
0.0
 30
0.0
  3
*Paper_Space
  1

  0
ENDBLK
  5
1D
330
1B
100
AcDbEntity
 67
     1
  8
0
100
AcDbBlockEnd
  0
BLOCK
  5
24
330
23
100
AcDbEntity
  8
0
100
AcDbBlockBegin
  2
*Paper_Space0
 70
     0
 10
0.0
 20
0.0
 30
0.0
  3
*Paper_Space0
  1

  0
ENDBLK
  5
25
330
23
100
AcDbEntity
  8
0
100
AcDbBlockEnd
  0
BLOCK
  5
98
330
97
100
AcDbEntity
  8
0
100
AcDbBlockBegin
  2
SW_CENTERMARKSYMBOL_0
 70
     0
 10
0.0
 20
0.0
 30
0.0
  3
SW_CENTERMARKSYMBOL_0
  1

  0
LINE
  5
9A
330
97
100
AcDbEntity
  8
FORMAT
 62
     0
100
AcDbLine
 10
0.0
 20
0.0
 30
0.0
 11
0.0
 21
2.5
 31
0.0
  0
LINE
  5
9B
330
97
100
AcDbEntity
  8
FORMAT
 62
     0
100
AcDbLine
 10
0.0
 20
0.0
 30
0.0
 11
-2.5
 21
0.0
 31
0.0
  0
LINE
  5
9C
330
97
100
AcDbEntity
  8
FORMAT
 62
     0
100
AcDbLine
 10
0.0
 20
0.0
 30
0.0
 11
0.0
 21
-2.5
 31
0.0
  0
LINE
  5
9D
330
97
100
AcDbEntity
  8
FORMAT
 62
     0
100
AcDbLine
 10
0.0
 20
0.0
 30
0.0
 11
2.5
 21
0.0
 31
0.0
  0
LINE
  5
9E
330
97
100
AcDbEntity
  8
FORMAT
 62
     0
100
AcDbLine
 10
0.0
 20
5.0
 30
0.0
 11
0.0
 21
65.0
 31
0.0
  0
LINE
  5
9F
330
97
100
AcDbEntity
  8
FORMAT
 62
     0
100
AcDbLine
 10
-5.0
 20
0.0
 30
0.0
 11
-65.0
 21
0.0
 31
0.0
  0
LINE
  5
A0
330
97
100
AcDbEntity
  8
FORMAT
 62
     0
100
AcDbLine
 10
0.0
 20
-5.0
 30
0.0
 11
0.0
 21
-65.0
 31
0.0
  0
LINE
  5
A1
330
97
100
AcDbEntity
  8
FORMAT
 62
     0
100
AcDbLine
 10
5.0
 20
0.0
 30
0.0
 11
65.0
 21
0.0
 31
0.0
  0
ENDBLK
  5
99
330
97
100
AcDbEntity
  8
0
100
AcDbBlockEnd
  0
BLOCK
  5
AD
330
AC
100
AcDbEntity
  8
0
100
AcDbBlockBegin
  2
SW_CENTERMARKSYMBOL_1
 70
     0
 10
0.0
 20
0.0
 30
0.0
  3
SW_CENTERMARKSYMBOL_1
  1

  0
LINE
  5
AF
330
AC
100
AcDbEntity
  8
FORMAT
 62
     0
100
AcDbLine
 10
0.0
 20
0.0
 30
0.0
 11
0.0
 21
2.5
 31
0.0
  0
LINE
  5
B0
330
AC
100
AcDbEntity
  8
FORMAT
 62
     0
100
AcDbLine
 10
0.0
 20
0.0
 30
0.0
 11
-2.5
 21
0.0
 31
0.0
  0
LINE
  5
B1
330
AC
100
AcDbEntity
  8
FORMAT
 62
     0
100
AcDbLine
 10
0.0
 20
0.0
 30
0.0
 11
0.0
 21
-2.5
 31
0.0
  0
LINE
  5
B2
330
AC
100
AcDbEntity
  8
FORMAT
 62
     0
100
AcDbLine
 10
0.0
 20
0.0
 30
0.0
 11
2.5
 21
0.0
 31
0.0
  0
LINE
  5
B3
330
AC
100
AcDbEntity
  8
FORMAT
 62
     0
100
AcDbLine
 10
0.0
 20
5.0
 30
0.0
 11
0.0
 21
65.0
 31
0.0
  0
LINE
  5
B4
330
AC
100
AcDbEntity
  8
FORMAT
 62
     0
100
AcDbLine
 10
-5.0
 20
0.0
 30
0.0
 11
-65.0
 21
0.0
 31
0.0
  0
LINE
  5
B5
330
AC
100
AcDbEntity
  8
FORMAT
 62
     0
100
AcDbLine
 10
0.0
 20
-5.0
 30
0.0
 11
0.0
 21
-65.0
 31
0.0
  0
LINE
  5
B6
330
AC
100
AcDbEntity
  8
FORMAT
 62
     0
100
AcDbLine
 10
5.0
 20
0.0
 30
0.0
 11
65.0
 21
0.0
 31
0.0
  0
ENDBLK
  5
AE
330
AC
100
AcDbEntity
  8
0
100
AcDbBlockEnd
  0
BLOCK
  5
C0
330
BF
100
AcDbEntity
  8
0
100
AcDbBlockBegin
  2
SW_CENTERMARKSYMBOL_2
 70
     0
 10
0.0
 20
0.0
 30
0.0
  3
SW_CENTERMARKSYMBOL_2
  1

  0
LINE
  5
C2
330
BF
100
AcDbEntity
  8
FORMAT
 62
     0
100
AcDbLine
 10
0.0
 20
0.0
 30
0.0
 11
0.0
 21
2.5
 31
0.0
  0
LINE
  5
C3
330
BF
100
AcDbEntity
  8
FORMAT
 62
     0
100
AcDbLine
 10
0.0
 20
0.0
 30
0.0
 11
-2.5
 21
0.0
 31
0.0
  0
LINE
  5
C4
330
BF
100
AcDbEntity
  8
FORMAT
 62
     0
100
AcDbLine
 10
0.0
 20
0.0
 30
0.0
 11
0.0
 21
-2.5
 31
0.0
  0
LINE
  5
C5
330
BF
100
AcDbEntity
  8
FORMAT
 62
     0
100
AcDbLine
 10
0.0
 20
0.0
 30
0.0
 11
2.5
 21
0.0
 31
0.0
  0
LINE
  5
C6
330
BF
100
AcDbEntity
  8
FORMAT
 62
     0
100
AcDbLine
 10
0.0
 20
5.0
 30
0.0
 11
0.0
 21
65.0
 31
0.0
  0
LINE
  5
C7
330
BF
100
AcDbEntity
  8
FORMAT
 62
     0
100
AcDbLine
 10
-5.0
 20
0.0
 30
0.0
 11
-65.0
 21
0.0
 31
0.0
  0
LINE
  5
C8
330
BF
100
AcDbEntity
  8
FORMAT
 62
     0
100
AcDbLine
 10
0.0
 20
-5.0
 30
0.0
 11
0.0
 21
-65.0
 31
0.0
  0
LINE
  5
C9
330
BF
100
AcDbEntity
  8
FORMAT
 62
     0
100
AcDbLine
 10
5.0
 20
0.0
 30
0.0
 11
65.0
 21
0.0
 31
0.0
  0
ENDBLK
  5
C1
330
BF
100
AcDbEntity
  8
0
100
AcDbBlockEnd
  0
BLOCK
  5
D3
330
D2
100
AcDbEntity
  8
0
100
AcDbBlockBegin
  2
SW_CENTERMARKSYMBOL_3
 70
     0
 10
0.0
 20
0.0
 30
0.0
  3
SW_CENTERMARKSYMBOL_3
  1

  0
LINE
  5
D5
330
D2
100
AcDbEntity
  8
FORMAT
 62
     0
100
AcDbLine
 10
0.0
 20
0.0
 30
0.0
 11
0.0
 21
2.5
 31
0.0
  0
LINE
  5
D6
330
D2
100
AcDbEntity
  8
FORMAT
 62
     0
100
AcDbLine
 10
0.0
 20
0.0
 30
0.0
 11
-2.5
 21
0.0
 31
0.0
  0
LINE
  5
D7
330
D2
100
AcDbEntity
  8
FORMAT
 62
     0
100
AcDbLine
 10
0.0
 20
0.0
 30
0.0
 11
0.0
 21
-2.5
 31
0.0
  0
LINE
  5
D8
330
D2
100
AcDbEntity
  8
FORMAT
 62
     0
100
AcDbLine
 10
0.0
 20
0.0
 30
0.0
 11
2.5
 21
0.0
 31
0.0
  0
LINE
  5
D9
330
D2
100
AcDbEntity
  8
FORMAT
 62
     0
100
AcDbLine
 10
0.0
 20
5.0
 30
0.0
 11
0.0
 21
65.0
 31
0.0
  0
LINE
  5
DA
330
D2
100
AcDbEntity
  8
FORMAT
 62
     0
100
AcDbLine
 10
-5.0
 20
0.0
 30
0.0
 11
-65.0
 21
0.0
 31
0.0
  0
LINE
  5
DB
330
D2
100
AcDbEntity
  8
FORMAT
 62
     0
100
AcDbLine
 10
0.0
 20
-5.0
 30
0.0
 11
0.0
 21
-65.0
 31
0.0
  0
LINE
  5
DC
330
D2
100
AcDbEntity
  8
FORMAT
 62
     0
100
AcDbLine
 10
5.0
 20
0.0
 30
0.0
 11
65.0
 21
0.0
 31
0.0
  0
ENDBLK
  5
D4
330
D2
100
AcDbEntity
  8
0
100
AcDbBlockEnd
  0
ENDSEC
  0
SECTION
  2
ENTITIES
  0
LINE
  5
83
330
1F
100
AcDbEntity
  8
0
  6
Continuous
 62
     7
370
    25
100
AcDbLine
 10
28.5331270621
 20
102.8787200961
 30
0.0
 11
28.5331270621
 21
-7.6212799039
 31
0.0
  0
LINE
  5
84
330
1F
100
AcDbEntity
  8
0
  6
Continuous
 62
     7
370
    25
100
AcDbLine
 10
153.5331270621
 20
-7.6212799039
 30
0.0
 11
153.5331270621
 21
102.8787200961
 31
0.0
  0
ARC
  5
85
330
1F
100
AcDbEntity
  8
0
  6
Continuous
 62
     7
370
    25
100
AcDbCircle
 10
153.5331270621
 20
102.8787200961
 30
0.0
 40
125.0
100
AcDbArc
 50
90.0
 51
180.0
  0
LINE
  5
86
330
1F
100
AcDbEntity
  8
0
  6
Continuous
 62
     7
370
    25
100
AcDbLine
 10
264.0331270621
 20
227.8787200961
 30
0.0
 11
153.5331270621
 21
227.8787200961
 31
0.0
  0
LINE
  5
87
330
1F
100
AcDbEntity
  8
0
  6
Continuous
 62
     7
370
    25
100
AcDbLine
 10
153.5331270621
 20
102.8787200961
 30
0.0
 11
264.0331270621
 21
102.8787200961
 31
0.0
  0
LINE
  5
88
330
1F
100
AcDbEntity
  8
0
  6
Continuous
 62
     7
370
    25
100
AcDbLine
 10
91.0331270621
 20
-7.6212799039
 30
0.0
 11
153.5331270621
 21
-7.6212799039
 31
0.0
  0
LINE
  5
89
330
1F
100
AcDbEntity
  8
0
  6
Continuous
 62
     7
370
    25
100
AcDbLine
 10
28.5331270621
 20
-7.6212799039
 30
0.0
 11
91.0331270621
 21
-7.6212799039
 31
0.0
  0
LINE
  5
8A
330
1F
100
AcDbEntity
  8
0
  6
Continuous
 62
     7
370
    25
100
AcDbLine
 10
264.0331270621
 20
165.3787200961
 30
0.0
 11
264.0331270621
 21
102.8787200961
 31
0.0
  0
LINE
  5
8B
330
1F
100
AcDbEntity
  8
0
  6
Continuous
 62
     7
370
    25
100
AcDbLine
 10
264.0331270621
 20
227.8787200961
 30
0.0
 11
264.0331270621
 21
165.3787200961
 31
0.0
  0
LINE
  5
8C
330
1F
100
AcDbEntity
  8
0
  6
Continuous
 62
     1
370
    25
100
AcDbLine
 10
28.5331270621
 20
102.8787200961
 30
0.0
 11
153.5331270621
 21
102.8787200961
 31
0.0
  0
LINE
  5
8D
330
1F
100
AcDbEntity
  8
0
  6
Continuous
 62
     1
370
    25
100
AcDbLine
 10
153.5331270621
 20
227.8787200961
 30
0.0
 11
153.5331270621
 21
102.8787200961
 31
0.0
  0
LINE
  5
8E
330
1F
100
AcDbEntity
  8
0
  6
Continuous
 62
     7
370
    25
100
AcDbLine
 10
-173.8483689849
 20
165.3787200961
 30
0.0
 11
-173.8483689849
 21
102.8787200961
 31
0.0
  0
LINE
  5
8F
330
1F
100
AcDbEntity
  8
0
  6
Continuous
 62
     7
370
    25
100
AcDbLine
 10
-48.8483689849
 20
102.8787200961
 30
0.0
 11
-48.8483689849
 21
165.3787200961
 31
0.0
  0
LINE
  5
90
330
1F
100
AcDbEntity
  8
0
  6
Continuous
 62
     7
370
    25
100
AcDbLine
 10
-173.8483689849
 20
102.8787200961
 30
0.0
 11
-173.8483689849
 21
-7.6212799039
 31
0.0
  0
LINE
  5
91
330
1F
100
AcDbEntity
  8
0
  6
Continuous
 62
     7
370
    25
100
AcDbLine
 10
-48.8483689849
 20
-7.6212799039
 30
0.0
 11
-48.8483689849
 21
102.8787200961
 31
0.0
  0
CIRCLE
  5
92
330
1F
100
AcDbEntity
  8
0
  6
Continuous
 62
     7
370
    25
100
AcDbCircle
 10
-111.3483689849
 20
165.3787200961
 30
0.0
 40
62.50000000000001
  0
CIRCLE
  5
93
330
1F
100
AcDbEntity
  8
0
  6
Continuous
 62
     7
370
    25
100
AcDbCircle
 10
-111.3483689849
 20
165.3787200961
 30
0.0
 40
51.10000000000001
  0
LINE
  5
94
330
1F
100
AcDbEntity
  8
0
  6
Continuous
 62
     7
370
    25
100
AcDbLine
 10
-173.8483689849
 20
-7.6212799039
 30
0.0
 11
-48.8483689849
 21
-7.6212799039
 31
0.0
  0
LINE
  5
95
330
1F
100
AcDbEntity
  8
0
  6
Continuous
 62
     1
370
    25
100
AcDbLine
 10
-111.3483689849
 20
102.8787200961
 30
0.0
 11
-48.8483689849
 21
102.8787200961
 31
0.0
  0
LINE
  5
96
330
1F
100
AcDbEntity
  8
0
  6
Continuous
 62
     1
370
    25
100
AcDbLine
 10
-173.8483689849
 20
102.8787200961
 30
0.0
 11
-111.3483689849
 21
102.8787200961
 31
0.0
  0
INSERT
  5
A2
330
1F
100
AcDbEntity
  8
FORMAT
 62
     7
100
AcDbBlockReference
  2
SW_CENTERMARKSYMBOL_0
 10
-111.3483689849
 20
165.3787200961
 30
0.0
  0
LINE
  5
A3
330
1F
100
AcDbEntity
  8
0
  6
Continuous
 62
     7
370
    25
100
AcDbLine
 10
264.0331270621
 20
416.7631660233
 30
0.0
 11
153.5331270621
 21
416.7631660233
 31
0.0
  0
LINE
  5
A4
330
1F
100
AcDbEntity
  8
0
  6
Continuous
 62
     7
370
    25
100
AcDbLine
 10
153.5331270621
 20
291.7631660233
 30
0.0
 11
264.0331270621
 21
291.7631660233
 31
0.0
  0
LINE
  5
A5
330
1F
100
AcDbEntity
  8
0
  6
Continuous
 62
     7
370
    25
100
AcDbLine
 10
153.5331270621
 20
416.7631660233
 30
0.0
 11
91.0331270621
 21
416.7631660233
 31
0.0
  0
LINE
  5
A6
330
1F
100
AcDbEntity
  8
0
  6
Continuous
 62
     7
370
    25
100
AcDbLine
 10
91.0331270621
 20
291.7631660233
 30
0.0
 11
153.5331270621
 21
291.7631660233
 31
0.0
  0
CIRCLE
  5
A7
330
1F
100
AcDbEntity
  8
0
  6
Continuous
 62
     7
370
    25
100
AcDbCircle
 10
91.0331270621
 20
354.2631660233
 30
0.0
 40
51.10000000000002
  0
CIRCLE
  5
A8
330
1F
100
AcDbEntity
  8
0
  6
Continuous
 62
     7
370
    25
100
AcDbCircle
 10
91.0331270621
 20
354.2631660233
 30
0.0
 40
62.5
  0
LINE
  5
A9
330
1F
100
AcDbEntity
  8
0
  6
Continuous
 62
     7
370
    25
100
AcDbLine
 10
264.0331270621
 20
416.7631660233
 30
0.0
 11
264.0331270621
 21
291.7631660233
 31
0.0
  0
LINE
  5
AA
330
1F
100
AcDbEntity
  8
0
  6
Continuous
 62
     1
370
    25
100
AcDbLine
 10
153.5331270621
 20
354.2631660233
 30
0.0
 11
153.5331270621
 21
291.7631660233
 31
0.0
  0
LINE
  5
AB
330
1F
100
AcDbEntity
  8
0
  6
Continuous
 62
     1
370
    25
100
AcDbLine
 10
153.5331270621
 20
416.7631660233
 30
0.0
 11
153.5331270621
 21
354.2631660233
 31
0.0
  0
INSERT
  5
B7
330
1F
100
AcDbEntity
  8
FORMAT
 62
     7
100
AcDbBlockReference
  2
SW_CENTERMARKSYMBOL_1
 10
91.0331270621
 20
354.2631660233
 30
0.0
  0
LINE
  5
B8
330
1F
100
AcDbEntity
  8
0
  6
Continuous
 62
     7
370
    25
100
AcDbLine
 10
349.7392197088
 20
102.8787200961
 30
0.0
 11
349.7392197088
 21
-7.6212799039
 31
0.0
  0
LINE
  5
B9
330
1F
100
AcDbEntity
  8
0
  6
Continuous
 62
     7
370
    25
100
AcDbLine
 10
474.7392197088
 20
-7.6212799039
 30
0.0
 11
474.7392197088
 21
102.8787200961
 31
0.0
  0
LINE
  5
BA
330
1F
100
AcDbEntity
  8
0
  6
Continuous
 62
     7
370
    25
100
AcDbLine
 10
474.7392197088
 20
102.8787200961
 30
0.0
 11
474.7392197088
 21
165.3787200961
 31
0.0
  0
LINE
  5
BB
330
1F
100
AcDbEntity
  8
0
  6
Continuous
 62
     7
370
    25
100
AcDbLine
 10
349.7392197088
 20
165.3787200961
 30
0.0
 11
349.7392197088
 21
102.8787200961
 31
0.0
  0
LINE
  5
BC
330
1F
100
AcDbEntity
  8
0
  6
Continuous
 62
     7
370
    25
100
AcDbLine
 10
349.7392197088
 20
-7.6212799039
 30
0.0
 11
474.7392197088
 21
-7.6212799039
 31
0.0
  0
ARC
  5
BD
330
1F
100
AcDbEntity
  8
0
  6
Continuous
 62
     7
370
    25
100
AcDbCircle
 10
412.2392197088
 20
165.3787200961
 30
0.0
 40
62.5
100
AcDbArc
 50
0.0
 51
180.0
  0
LINE
  5
BE
330
1F
100
AcDbEntity
  8
0
  6
Continuous
 62
     1
370
    25
100
AcDbLine
 10
349.7392197088
 20
102.8787200961
 30
0.0
 11
474.7392197088
 21
102.8787200961
 31
0.0
  0
INSERT
  5
CA
330
1F
100
AcDbEntity
  8
FORMAT
 62
     7
100
AcDbBlockReference
  2
SW_CENTERMARKSYMBOL_2
 10
412.2392197088
 20
165.3787200961
 30
0.0
  0
LINE
  5
CB
330
1F
100
AcDbEntity
  8
0
  6
Continuous
 62
     7
370
    25
100
AcDbLine
 10
91.0331270621
 20
-228.5967287542
 30
0.0
 11
153.5331270621
 21
-228.5967287542
 31
0.0
  0
LINE
  5
CC
330
1F
100
AcDbEntity
  8
0
  6
Continuous
 62
     7
370
    25
100
AcDbLine
 10
153.5331270621
 20
-103.5967287542
 30
0.0
 11
91.0331270621
 21
-103.5967287542
 31
0.0
  0
LINE
  5
CD
330
1F
100
AcDbEntity
  8
0
  6
Continuous
 62
     7
370
    25
100
AcDbLine
 10
264.0331270621
 20
-103.5967287542
 30
0.0
 11
153.5331270621
 21
-103.5967287542
 31
0.0
  0
LINE
  5
CE
330
1F
100
AcDbEntity
  8
0
  6
Continuous
 62
     7
370
    25
100
AcDbLine
 10
153.5331270621
 20
-228.5967287542
 30
0.0
 11
264.0331270621
 21
-228.5967287542
 31
0.0
  0
ARC
  5
CF
330
1F
100
AcDbEntity
  8
0
  6
Continuous
 62
     7
370
    25
100
AcDbCircle
 10
91.0331270621
 20
-166.0967287542
 30
0.0
 40
62.50000000000006
100
AcDbArc
 50
90.0
 51
270.0
  0
LINE
  5
D0
330
1F
100
AcDbEntity
  8
0
  6
Continuous
 62
     7
370
    25
100
AcDbLine
 10
264.0331270621
 20
-103.5967287542
 30
0.0
 11
264.0331270621
 21
-228.5967287542
 31
0.0
  0
LINE
  5
D1
330
1F
100
AcDbEntity
  8
0
  6
Continuous
 62
     1
370
    25
100
AcDbLine
 10
153.5331270621
 20
-103.5967287542
 30
0.0
 11
153.5331270621
 21
-228.5967287542
 31
0.0
  0
INSERT
  5
DD
330
1F
100
AcDbEntity
  8
FORMAT
 62
     7
100
AcDbBlockReference
  2
SW_CENTERMARKSYMBOL_3
 10
91.0331270621
 20
-166.0967287542
 30
0.0
  0
LINE
  5
DE
330
1F
100
AcDbEntity
  8
0
  6
Continuous
 62
     7
370
    25
100
AcDbLine
 10
495.2439007298
 20
-33.1923044786
 30
0.0
 11
417.1086014086
 21
-78.2988526568
 31
0.0
  0
LINE
  5
DF
330
1F
100
AcDbEntity
  8
0
  6
Continuous
 62
     7
370
    25
100
AcDbLine
 10
479.6035221984
 20
-186.5549604544
 30
0.0
 11
557.7388215195
 21
-141.4484122762
 31
0.0
  0
LINE
  5
E0
330
1F
100
AcDbEntity
  8
0
  6
Continuous
 62
     7
370
    25
100
AcDbLine
 10
341.6618879794
 20
-208.973460793
 30
0.0
 11
341.6618879794
 21
-299.2012205063
 31
0.0
  0
LINE
  5
E1
330
1F
100
AcDbEntity
  8
0
  6
Continuous
 62
     7
370
    25
100
AcDbLine
 10
466.6618879794
 20
-299.2012205063
 30
0.0
 11
466.6618879794
 21
-208.973460793
 31
0.0
  0
SPLINE
  5
E2
330
1F
100
AcDbEntity
  8
0
  6
Continuous
 62
     7
370
    25
100
AcDbSpline
210
0.0
220
0.0
230
1.0
 70
     8
 71
     3
 72
    38
 73
    34
 74
     0
 42
0.00000001
 43
0.00000001
 40
0.0
 40
0.0
 40
0.0
 40
0.0
 40
0.021407436121762
 40
0.0543110237849344
 40
0.0872979226369504
 40
0.1204461378624945
 40
0.1536935245966539
 40
0.186975024862668
 40
0.2202404718719797
 40
0.2534580561432446
 40
0.2866073721316922
 40
0.3196785745586928
 40
0.3526709224464322
 40
0.3855911236512675
 40
0.4184517283495863
 40
0.4512697011914723
 40
0.4840652128300933
 40
0.5168606347039697
 40
0.5496795890806595
 40
0.5825384547099896
 40
0.615461597090557
 40
0.6484726945908204
 40
0.6815938577045195
 40
0.7148445651899946
 40
0.7482403467278115
 40
0.7817911657635884
 40
0.815499504616277
 40
0.8493582412918113
 40
0.8833485420663982
 40
0.9174381658063505
 40
0.9515706337492362
 40
0.9856741634795375
 40
1.0
 40
1.0
 40
1.0
 40
1.0
 10
417.108601408643
 20
-78.29885265684256
 30
0.0
 10
416.1716918749543
 20
-78.84973284758013
 30
0.0
 10
413.7947367048405
 20
-80.24732511279223
 30
0.0
 10
410.0525932367805
 20
-82.65721690336008
 30
0.0
 10
405.894210451586
 20
-85.55772781848545
 30
0.0
 10
401.8178441908057
 20
-88.64326312513599
 30
0.0
 10
397.827418951532
 20
-91.90379581030817
 30
0.0
 10
393.9339256208202
 20
-95.3290152820604
 30
0.0
 10
390.1461995387456
 20
-98.90724220612329
 30
0.0
 10
386.4712861042985
 20
-102.6278616279134
 30
0.0
 10
382.9146056436052
 20
-106.4810651460306
 30
0.0
 10
379.4804969260539
 20
-110.4578756088067
 30
0.0
 10
376.1724608361623
 20
-114.5501614318898
 30
0.0
 10
372.9934232553362
 20
-118.7506144157322
 30
0.0
 10
369.9459669490629
 20
-123.0526737283948
 30
0.0
 10
367.0325275296225
 20
-127.4504330239293
 30
0.0
 10
364.2555513008974
 20
-131.9385420068251
 30
0.0
 10
361.6176232837056
 20
-136.5121057492858
 30
0.0
 10
359.12176503172
 20
-141.1662212645052
 30
0.0
 10
356.7712572900348
 20
-145.8962436425124
 30
0.0
 10
354.5696987960675
 20
-150.6977141159533
 30
0.0
 10
352.5209200752129
 20
-155.5666596957399
 30
0.0
 10
350.6292427734231
 20
-160.4990884109138
 30
0.0
 10
348.8995291130432
 20
-165.4908249933577
 30
0.0
 10
347.3372188866493
 20
-170.5373033395695
 30
0.0
 10
345.9483318990357
 20
-175.6333101047877
 30
0.0
 10
344.739462620828
 20
-180.7726757166484
 30
0.0
 10
343.7175855375926
 20
-185.9479450350656
 30
0.0
 10
342.8902542391108
 20
-191.1499970778951
 30
0.0
 10
342.2639705536055
 20
-196.3674050187423
 30
0.0
 10
341.8489995869193
 20
-201.5856227678806
 30
0.0
 10
341.679386417483
 20
-205.7881768073405
 30
0.0
 10
341.6658825447965
 20
-208.2463201634274
 30
0.0
 10
341.6618879793609
 20
-208.9734607929542
 30
0.0
  0
SPLINE
  5
E3
330
1F
100
AcDbEntity
  8
0
  6
Continuous
 62
     7
370
    25
100
AcDbSpline
210
0.0
220
0.0
230
1.0
 70
     8
 71
     3
 72
    33
 73
    29
 74
     0
 42
0.00000001
 43
0.00000001
 40
0.0
 40
0.0
 40
0.0
 40
0.0
 40
0.0097248526856154
 40
0.0518444889159114
 40
0.0925534102137082
 40
0.1322369334415005
 40
0.1712418186633277
 40
0.2098688751834721
 40
0.2483670704548366
 40
0.2869294622587885
 40
0.3256688209977034
 40
0.364656254623297
 40
0.4039359680224949
 40
0.443505607536488
 40
0.483325569569142
 40
0.523330146509041
 40
0.5634377240561484
 40
0.6035433965399173
 40
0.6435865275581217
 40
0.6835388861963662
 40
0.7234170139422417
 40
0.763292597364675
 40
0.8032999423657242
 40
0.8435887189613727
 40
0.8843887354213412
 40
0.9260024548189058
 40
0.9687869080249959
 40
1.0
 40
1.0
 40
1.0
 40
1.0
 10
466.6615054488091
 20
-209.0163740975235
 30
0.0
 10
466.6614247981031
 20
-209.0220715530075
 30
0.0
 10
466.6609948384144
 20
-209.0524454493783
 30
0.0
 10
466.6670120354113
 20
-208.9084772017745
 30
0.0
 10
466.7019474628254
 20
-208.5752683428069
 30
0.0
 10
466.7799877580115
 20
-208.0374778102555
 30
0.0
 10
466.9138619479115
 20
-207.327176909159
 30
0.0
 10
467.1150131684334
 20
-206.452024869316
 30
0.0
 10
467.392865991384
 20
-205.4279975080052
 30
0.0
 10
467.7546444171359
 20
-204.27171325435
 30
0.0
 10
468.204923046707
 20
-203.0029460066262
 30
0.0
 10
468.7453178798872
 20
-201.6438313370467
 30
0.0
 10
469.3743408742461
 20
-200.2184707421511
 30
0.0
 10
470.087178450666
 20
-198.7526113499779
 30
0.0
 10
470.8754384591712
 20
-197.2733779850147
 30
0.0
 10
471.7271529674103
 20
-195.8085170556178
 30
0.0
 10
472.6268082045545
 20
-194.3857404934977
 30
0.0
 10
473.5559447599289
 20
-193.0313055220635
 30
0.0
 10
474.4938511093402
 20
-191.7689080473628
 30
0.0
 10
475.4185135603961
 20
-190.6185996470411
 30
0.0
 10
476.3071716207794
 20
-189.596484151688
 30
0.0
 10
477.1369310990837
 20
-188.7144163494985
 30
0.0
 10
477.8852122542174
 20
-187.980099695367
 30
0.0
 10
478.5295458045312
 20
-187.3973807786729
 30
0.0
 10
479.0512996510534
 20
-186.9642574918032
 30
0.0
 10
479.423497008096
 20
-186.6810675864329
 30
0.0
 10
479.6342541736702
 20
-186.5372760306232
 30
0.0
 10
479.6362342176442
 20
-186.5363875574023
 30
0.0
 10
479.6370694250086
 20
-186.5360127882624
 30
0.0
  0
LWPOLYLINE
  5
E4
330
1F
100
AcDbEntity
  8
0
  6
Continuous
 62
     7
370
    25
100
AcDbPolyline
 90
      101
 70
   128
 43
0.0
 10
482.2971873005
 20
-61.807604883
 10
482.3843944073
 20
-65.0623873364
 10
482.6456715612
 20
-68.4050118327
 10
483.0799876207
 20
-71.8222865603
 10
483.6856285386
 20
-75.300725097
 10
484.4602041269
 20
-78.826599635
 10
485.4006574897
 20
-82.3859951583
 10
486.5032770871
 20
-85.9648643589
 10
487.7637113835
 20
-89.5490830752
 10
489.1769860204
 20
-93.1245060333
 10
490.7375234485
 20
-96.6770226722
 10
492.4391649396
 20
-100.1926128318
 10
494.275194892
 20
-103.6574020839
 10
496.2383673344
 20
-107.0577164881
 10
498.320934522
 20
-110.3801365571
 10
500.5146775135
 20
-113.6115502165
 10
502.8109386077
 20
-116.7392045531
 10
505.200655511
 20
-119.750756144
 10
507.6743971025
 20
-122.634319771
 10
510.2224006543
 20
-125.3785153257
 10
512.8346103606
 20
-127.9725127221
 10
515.500717023
 20
-130.4060746376
 10
518.2101987364
 20
-132.6695969149
 10
520.9523624145
 20
-134.7541464658
 10
523.71638599
 20
-136.6514965255
 10
526.4913611246
 20
-138.3541591203
 10
529.2663362592
 20
-139.8554146186
 10
532.0303598347
 20
-141.149338251
 10
534.7725235128
 20
-142.2308234919
 10
537.4820052263
 20
-143.0956022132
 10
540.1481118887
 20
-143.7402615283
 10
542.7603215949
 20
-144.1622572615
 10
545.3083251468
 20
-144.3599239885
 10
547.7820667383
 20
-144.3324816088
 10
550.1717836416
 20
-144.0800384252
 10
552.4680447357
 20
-143.6035907154
 10
554.6617877273
 20
-142.9050188009
 10
556.7443549149
 20
-141.987079626
 10
558.7075273573
 20
-140.8533958771
 10
560.5435573097
 20
-139.5084416861
 10
562.2451988007
 20
-137.9575249728
 10
563.8057362289
 20
-136.2067664969
 10
565.2190108658
 20
-134.2630757022
 10
566.4794451621
 20
-132.1341234483
 10
567.5820647596
 20
-129.8283117371
 10
568.5225181224
 20
-127.3547405541
 10
569.2970937107
 20
-124.7231719545
 10
569.9027346286
 20
-121.9439915375
 10
570.337050688
 20
-119.0281674585
 10
570.5983278419
 20
-115.9872071429
 10
570.6855349488
 20
-112.8331118719
 10
570.5983278419
 20
-109.5783294185
 10
570.337050688
 20
-106.2357049221
 10
569.9027346286
 20
-102.8184301945
 10
569.2970937107
 20
-99.3399916579
 10
568.5225181224
 20
-95.8141171199
 10
567.5820647596
 20
-92.2547215966
 10
566.4794451621
 20
-88.6758523959
 10
565.2190108658
 20
-85.0916336797
 10
563.8057362289
 20
-81.5162107216
 10
562.2451988007
 20
-77.9636940827
 10
560.5435573097
 20
-74.448103923
 10
558.7075273573
 20
-70.983314671
 10
556.7443549149
 20
-67.5830002667
 10
554.6617877273
 20
-64.2605801978
 10
552.4680447357
 20
-61.0291665383
 10
550.1717836416
 20
-57.9015122018
 10
547.7820667383
 20
-54.8899606108
 10
545.3083251468
 20
-52.0063969839
 10
542.7603215949
 20
-49.2622014291
 10
540.1481118887
 20
-46.6682040327
 10
537.4820052263
 20
-44.2346421173
 10
534.7725235128
 20
-41.97111984
 10
532.0303598347
 20
-39.8865702891
 10
529.2663362592
 20
-37.9892202293
 10
526.4913611246
 20
-36.2865576346
 10
523.71638599
 20
-34.7853021362
 10
520.9523624145
 20
-33.4913785039
 10
518.2101987364
 20
-32.409893263
 10
515.500717023
 20
-31.5451145417
 10
512.8346103606
 20
-30.9004552265
 10
510.2224006543
 20
-30.4784594933
 10
507.6743971025
 20
-30.2807927664
 10
505.200655511
 20
-30.308235146
 10
502.8109386077
 20
-30.5606783297
 10
500.5146775135
 20
-31.0371260395
 10
498.320934522
 20
-31.735697954
 10
496.2383673344
 20
-32.6536371289
 10
494.275194892
 20
-33.7873208778
 10
492.4391649396
 20
-35.1322750687
 10
490.7375234485
 20
-36.683191782
 10
489.1769860204
 20
-38.433950258
 10
487.7637113835
 20
-40.3776410527
 10
486.5032770871
 20
-42.5065933066
 10
485.4006574897
 20
-44.8124050178
 10
484.4602041269
 20
-47.2859762008
 10
483.6856285386
 20
-49.9175448003
 10
483.0799876207
 20
-52.6967252173
 10
482.6456715612
 20
-55.6125492964
 10
482.3843944073
 20
-58.653509612
 10
482.2971873005
 20
-61.807604883
  0
LWPOLYLINE
  5
E5
330
1F
100
AcDbEntity
  8
0
  6
Continuous
 62
     7
370
    25
100
AcDbPolyline
 90
       92
 70
   128
 43
0.0
 10
490.358204606
 20
-66.4611311204
 10
490.4443000789
 20
-63.6321612321
 10
490.7021762134
 20
-60.9160763908
 10
491.1306041123
 20
-58.3258199776
 10
491.7275421216
 20
-55.8737357439
 10
492.4901455598
 20
-53.5715089878
 10
493.4147802742
 20
-51.4301108682
 10
494.4970399593
 20
-49.4597461222
 10
495.731767155
 20
-47.6698044353
 10
497.1130778237
 20
-46.0688156947
 10
498.6343893912
 20
-44.6644093408
 10
500.288452115
 20
-43.4632780095
 10
502.067383633
 20
-42.4711456386
 10
503.9627065263
 20
-41.6927401906
 10
505.9653887183
 20
-41.1317711219
 10
508.0658865163
 20
-40.7909117057
 10
510.2541900916
 20
-40.6717862923
 10
512.5198711814
 20
-40.7749625685
 10
514.8521327833
 20
-41.0999488523
 10
517.2398606087
 20
-41.6451964363
 10
519.6716760472
 20
-42.4081069672
 10
522.1359903907
 20
-43.385044829
 10
524.6210600593
 20
-44.571354468
 10
527.1150425641
 20
-45.9613825783
 10
529.6060529428
 20
-47.5485050431
 10
532.0822203966
 20
-49.325158501
 10
534.5317448599
 20
-51.2828763893
 10
536.9429532332
 20
-53.4123292906
 10
539.3043550104
 20
-55.7033693922
 10
541.6046970368
 20
-58.1450788445
 10
543.8330171349
 20
-60.7258217902
 10
545.9786963448
 20
-63.4332998138
 10
548.0315095279
 20
-66.2546105496
 10
549.9816740946
 20
-69.1763091671
 10
551.8198966225
 20
-72.1844724418
 10
553.5374171442
 20
-75.2647651058
 10
555.1260508922
 20
-78.4025081618
 10
556.5782273034
 20
-81.5827488353
 10
557.8870260957
 20
-84.7903318312
 10
559.046210247
 20
-88.0099715557
 10
560.0502557167
 20
-91.2263249594
 10
560.8943777711
 20
-94.4240646536
 10
561.5745537842
 20
-97.5879519523
 10
562.0875424074
 20
-100.7029094918
 10
562.4308990164
 20
-103.7540930809
 10
562.6029873605
 20
-106.7269624402
 10
562.6029873605
 20
-109.6073504935
 10
562.4308990164
 20
-112.3815308798
 10
562.0875424074
 20
-115.0362833665
 10
561.5745537842
 20
-117.5589568487
 10
560.8943777711
 20
-119.9375296387
 10
560.0502557167
 20
-122.1606667538
 10
559.046210247
 20
-124.2177739334
 10
557.8870260957
 20
-126.0990481248
 10
556.5782273034
 20
-127.7955241998
 10
555.1260508922
 20
-129.2991176775
 10
553.5374171442
 20
-130.60266325
 10
551.8198966225
 20
-131.6999489292
 10
549.9816740946
 20
-132.585745649
 10
548.0315095279
 20
-133.2558321847
 10
545.9786963448
 20
-133.7070152689
 10
543.8330171349
 20
-133.9371448085
 10
541.6046970368
 20
-133.9451241317
 10
539.3043550104
 20
-133.7309152133
 10
536.9429532332
 20
-133.2955388563
 10
534.5317448599
 20
-132.6410698273
 10
532.0822203966
 20
-131.7706269693
 10
529.6060529428
 20
-130.6883583389
 10
527.1150425641
 20
-129.3994214391
 10
524.6210600593
 20
-127.909958641
 10
522.1359903907
 20
-126.2270679133
 10
519.6716760472
 20
-124.3587689966
 10
517.2398606087
 20
-122.3139651862
 10
514.8521327833
 20
-120.1024009033
 10
512.5198711814
 20
-117.7346152589
 10
510.2541900916
 20
-115.2218918298
 10
508.0658865163
 20
-112.5762048876
 10
505.9653887183
 20
-109.8101623353
 10
503.9627065263
 20
-106.9369456254
 10
502.067383633
 20
-103.9702469439
 10
500.288452115
 20
-100.924203961
 10
498.6343893912
 20
-97.8133324588
 10
497.1130778237
 20
-94.6524571566
 10
495.731767155
 20
-91.4566410647
 10
494.4970399593
 20
-88.2411137021
 10
493.4147802742
 20
-85.0211985212
 10
492.4901455598
 20
-81.8122398839
 10
491.7275421216
 20
-78.6295299397
 10
491.1306041123
 20
-75.4882357507
 10
490.7021762134
 20
-72.4033270144
 10
490.4443000789
 20
-69.3895047257
 10
490.358204606
 20
-66.4611311204
  0
LWPOLYLINE
  5
E6
330
1F
100
AcDbEntity
  8
0
  6
Continuous
 62
     7
370
    25
100
AcDbPolyline
 90
      101
 70
   128
 43
0.0
 10
359.9677141552
 20
-273.6884670119
 10
362.8298963966
 20
-272.1368515565
 10
365.855197126
 20
-270.6920468009
 10
369.0316768636
 20
-269.3597547292
 10
372.346799495
 20
-268.1452332898
 10
375.7874817456
 20
-267.0532756437
 10
379.3401448147
 20
-266.088191249
 10
382.990767964
 20
-265.2537888529
 10
386.7249438519
 20
-264.5533614604
 10
390.5279353921
 20
-263.9896733385
 10
394.3847339143
 20
-263.5649491066
 10
398.280118397
 20
-263.2808649573
 10
402.198715537
 20
-263.1385420408
 10
406.1250604217
 20
-263.1385420408
 10
410.0436575618
 20
-263.2808649573
 10
413.9390420444
 20
-263.5649491066
 10
417.7958405666
 20
-263.9896733385
 10
421.5988321068
 20
-264.5533614604
 10
425.3330079947
 20
-265.2537888529
 10
428.983631144
 20
-266.088191249
 10
432.5362942131
 20
-267.0532756437
 10
435.9769764638
 20
-268.1452332898
 10
439.2920990951
 20
-269.3597547292
 10
442.4685788327
 20
-270.6920468009
 10
445.4938795621
 20
-272.1368515565
 10
448.3560618035
 20
-273.6884670119
 10
451.0438298313
 20
-275.3407696496
 10
453.5465762528
 20
-277.0872385861
 10
455.8544238715
 20
-278.9209813062
 10
457.9582646671
 20
-280.8347608654
 10
459.8497957411
 20
-282.8210244499
 10
461.5215520846
 20
-284.8719331848
 10
462.966936039
 20
-286.9793930704
 10
464.1802433342
 20
-289.1350869252
 10
465.1566856005
 20
-291.3305072105
 10
465.8924092666
 20
-293.5569896054
 10
466.3845107671
 20
-295.8057472011
 10
466.6310480022
 20
-298.0679051786
 10
466.6310480022
 20
-300.334535834
 10
466.3845107671
 20
-302.5966938116
 10
465.8924092666
 20
-304.8454514072
 10
465.1566856005
 20
-307.0719338021
 10
464.1802433342
 20
-309.2673540874
 10
462.966936039
 20
-311.4230479423
 10
461.5215520846
 20
-313.5305078278
 10
459.8497957411
 20
-315.5814165628
 10
457.9582646671
 20
-317.5676801473
 10
455.8544238715
 20
-319.4814597064
 10
453.5465762528
 20
-321.3152024266
 10
451.0438298313
 20
-323.0616713631
 10
448.3560618035
 20
-324.7139740008
 10
445.4938795621
 20
-326.2655894561
 10
442.4685788327
 20
-327.7103942118
 10
439.2920990951
 20
-329.0426862834
 10
435.9769764638
 20
-330.2572077229
 10
432.5362942131
 20
-331.349165369
 10
428.983631144
 20
-332.3142497636
 10
425.3330079947
 20
-333.1486521598
 10
421.5988321068
 20
-333.8490795522
 10
417.7958405666
 20
-334.4127676742
 10
413.9390420444
 20
-334.8374919061
 10
410.0436575618
 20
-335.1215760554
 10
406.1250604217
 20
-335.2638989718
 10
402.198715537
 20
-335.2638989718
 10
398.280118397
 20
-335.1215760554
 10
394.3847339143
 20
-334.8374919061
 10
390.5279353921
 20
-334.4127676742
 10
386.7249438519
 20
-333.8490795522
 10
382.990767964
 20
-333.1486521598
 10
379.3401448147
 20
-332.3142497636
 10
375.7874817456
 20
-331.349165369
 10
372.346799495
 20
-330.2572077229
 10
369.0316768636
 20
-329.0426862834
 10
365.855197126
 20
-327.7103942118
 10
362.8298963966
 20
-326.2655894561
 10
359.9677141552
 20
-324.7139740008
 10
357.2799461275
 20
-323.0616713631
 10
354.7771997059
 20
-321.3152024266
 10
352.4693520872
 20
-319.4814597064
 10
350.3655112916
 20
-317.5676801473
 10
348.4739802176
 20
-315.5814165628
 10
346.8022238741
 20
-313.5305078278
 10
345.3568399197
 20
-311.4230479423
 10
344.1435326246
 20
-309.2673540874
 10
343.1670903582
 20
-307.0719338021
 10
342.4313666922
 20
-304.8454514072
 10
341.9392651917
 20
-302.5966938116
 10
341.6927279565
 20
-300.334535834
 10
341.6927279565
 20
-298.0679051786
 10
341.9392651917
 20
-295.8057472011
 10
342.4313666922
 20
-293.5569896054
 10
343.1670903582
 20
-291.3305072105
 10
344.1435326246
 20
-289.1350869252
 10
345.3568399197
 20
-286.9793930704
 10
346.8022238741
 20
-284.8719331848
 10
348.4739802176
 20
-282.8210244499
 10
350.3655112916
 20
-280.8347608654
 10
352.4693520872
 20
-278.9209813062
 10
354.7771997059
 20
-277.0872385861
 10
357.2799461275
 20
-275.3407696496
 10
359.9677141552
 20
-273.6884670119
  0
LWPOLYLINE
  5
E7
330
1F
100
AcDbEntity
  8
0
  6
Continuous
 62
     7
370
    25
100
AcDbPolyline
 90
       92
 70
   128
 43
0.0
 10
368.0287314607
 20
-278.3419932493
 10
365.6219591144
 20
-279.8307970677
 10
363.3988470802
 20
-281.411909775
 10
361.3699894992
 20
-283.0777966492
 10
359.5450548018
 20
-284.8205189806
 10
357.9327396329
 20
-286.6317719038
 10
356.5407274085
 20
-288.5029239736
 10
355.3756517008
 20
-290.4250582984
 10
354.443064626
 20
-292.3890150327
 10
353.7474103864
 20
-294.3854350284
 10
353.2920040912
 20
-296.404804435
 10
353.0790159586
 20
-298.4375000376
 10
353.1094609743
 20
-300.4738351161
 10
353.3831940538
 20
-302.5041056064
 10
353.8989107344
 20
-304.5186363451
 10
354.6541533911
 20
-306.5078271758
 10
355.6453229489
 20
-308.4621986983
 10
356.8676960333
 20
-310.3724374423
 10
358.3154474801
 20
-312.2294402502
 10
359.9816780941
 20
-314.024357658
 10
361.8584475279
 20
-315.7486360669
 10
363.9368121202
 20
-317.394058505
 10
366.2068675175
 20
-318.952783785
 10
368.6577958718
 20
-320.4173838713
 10
371.2779173935
 20
-321.7808792773
 10
374.0547460104
 20
-323.0367723265
 10
376.9750488694
 20
-324.1790781166
 10
380.0249093976
 20
-325.2023530404
 10
383.1897936207
 20
-326.1017207268
 10
386.4546194241
 20
-326.8728952793
 10
389.8038284259
 20
-327.5122016998
 10
393.2214601202
 20
-328.0165934022
 10
396.6912279354
 20
-328.3836667303
 10
400.1965968479
 20
-328.6116724126
 10
403.7208621784
 20
-328.699523898
 10
407.2472291976
 20
-328.6468025343
 10
410.758893161
 20
-328.4537595629
 10
414.2391193903
 20
-328.1213149213
 10
417.6713230229
 20
-327.6510528596
 10
421.0391480453
 20
-327.0452143909
 10
424.3265452376
 20
-326.3066866111
 10
427.5178486552
 20
-325.4389889416
 10
430.5978502838
 20
-324.446256357
 10
433.5518725133
 20
-323.3332196799
 10
436.3658380823
 20
-322.1051830372
 10
439.0263371635
 20
-320.7679985825
 10
441.5206912671
 20
-319.3280386089
 10
443.8370136599
 20
-317.7921651814
 10
445.964266011
 20
-316.1676974361
 10
447.892310994
 20
-314.4623767019
 10
449.6119605966
 20
-312.6843296084
 10
451.1150199053
 20
-310.8420293599
 10
452.3943261581
 20
-308.9442553561
 10
453.443782878
 20
-307.0000513542
 10
454.2583889259
 20
-305.0186823717
 10
454.834262333
 20
-303.0095905342
 10
455.1686588002
 20
-300.9823500792
 10
455.259984776
 20
-298.9466217307
 10
455.1078050507
 20
-296.9121066613
 10
454.7128448299
 20
-294.8885002618
 10
454.0769862789
 20
-292.8854459383
 10
453.2032595534
 20
-290.9124891567
 10
452.0958283589
 20
-288.9790319548
 10
450.7599701096
 20
-287.0942881364
 10
449.2020507782
 20
-285.2672393642
 10
447.4294945599
 20
-283.5065923577
 10
445.4507484923
 20
-281.8207374016
 10
443.2752422016
 20
-280.2177083626
 10
440.9133429658
 20
-278.7051444039
 10
438.3763063105
 20
-277.2902535817
 10
435.6762223707
 20
-275.9797784951
 10
432.8259582759
 20
-274.7799641547
 10
429.8390968327
 20
-273.6965282222
 10
426.7298717959
 20
-272.7346337632
 10
423.5131000389
 20
-271.8988646429
 10
420.2041109439
 20
-271.1932036816
 10
416.8186733508
 20
-270.6210136753
 10
413.3729204117
 20
-270.18502137
 10
409.8832727082
 20
-269.8873044674
 10
406.3663600011
 20
-269.7292817242
 10
402.8389419808
 20
-269.7117061907
 10
399.3178284008
 20
-269.8346616225
 10
395.8197989705
 20
-270.0975620807
 10
392.3615233934
 20
-270.4991547251
 10
388.9594819274
 20
-271.0375257838
 10
385.6298868493
 20
-271.7101096735
 10
382.3886051961
 20
-272.5137012257
 10
379.2510831508
 20
-273.4444709608
 10
376.2322724348
 20
-274.4979833369
 10
373.346559056
 20
-275.669217888
 10
370.6076947528
 20
-276.952593148
 10
368.0287314607
 20
-278.3419932493
  0
LWPOLYLINE
  5
E8
330
1F
100
AcDbEntity
  8
0
  6
Continuous
 62
     1
370
    25
100
AcDbPolyline
 90
       14
 70
   128
 43
0.0
 10
448.3560618035
 20
-183.4607072985
 10
451.1310369381
 20
-184.9619627968
 10
453.8950605136
 20
-186.2558864292
 10
456.6372241917
 20
-187.3373716701
 10
459.3467059052
 20
-188.2021503914
 10
462.0128125675
 20
-188.8468097065
 10
464.6250222738
 20
-189.2688054398
 10
467.1730258257
 20
-189.4664721667
 10
469.6467674172
 20
-189.439029787
 10
472.0364843205
 20
-189.1865866034
 10
474.3327454146
 20
-188.7101388936
 10
476.5264884062
 20
-188.0115669791
 10
478.6090555938
 20
-187.0936278042
 10
479.6035221984
 20
-186.5549604544
  0
LWPOLYLINE
  5
E9
330
1F
100
AcDbEntity
  8
0
  6
Continuous
 62
     1
370
    25
100
AcDbPolyline
 90
       39
 70
   128
 43
0.0
 10
417.1086014086
 20
-78.2988526568
 10
416.1398955709
 20
-78.893869056
 10
414.3038656185
 20
-80.2388232469
 10
412.6022241274
 20
-81.7897399602
 10
411.0416866993
 20
-83.5404984362
 10
409.6284120624
 20
-85.4841892309
 10
408.367977766
 20
-87.6131414848
 10
407.2653581686
 20
-89.918953196
 10
406.3249048058
 20
-92.392524379
 10
405.5503292174
 20
-95.0240929785
 10
404.9446882996
 20
-97.8032733955
 10
404.5103722401
 20
-100.7190974746
 10
404.2490950862
 20
-103.7600577902
 10
404.1618879794
 20
-106.9141530612
 10
404.2490950862
 20
-110.1689355146
 10
404.5103722401
 20
-113.5115600109
 10
404.9446882996
 20
-116.9288347385
 10
405.5503292174
 20
-120.4072732752
 10
406.3249048058
 20
-123.9331478132
 10
407.2653581686
 20
-127.4925433365
 10
408.367977766
 20
-131.0714125371
 10
409.6284120624
 20
-134.6556312534
 10
411.0416866993
 20
-138.2310542115
 10
412.6022241274
 20
-141.7835708504
 10
414.3038656185
 20
-145.29916101
 10
416.1398955709
 20
-148.7639502621
 10
418.1030680133
 20
-152.1642646664
 10
420.1856352009
 20
-155.4866847353
 10
422.3793781924
 20
-158.7180983947
 10
424.6756392866
 20
-161.8457527313
 10
427.0653561898
 20
-164.8573043222
 10
429.5390977814
 20
-167.7408679492
 10
432.0871013332
 20
-170.485063504
 10
434.6993110395
 20
-173.0790609004
 10
437.3654177018
 20
-175.5126228158
 10
440.0748994153
 20
-177.7761450931
 10
442.8170630934
 20
-179.860694644
 10
445.5810866689
 20
-181.7580447038
 10
448.3560618035
 20
-183.4607072985
  0
LWPOLYLINE
  5
EA
330
1F
100
AcDbEntity
  8
0
  6
Continuous
 62
     1
370
    25
100
AcDbPolyline
 90
       14
 70
   128
 43
0.0
 10
448.3560618035
 20
-183.4607072985
 10
451.0438298313
 20
-185.1130099362
 10
453.5465762528
 20
-186.8594788727
 10
455.8544238715
 20
-188.6932215929
 10
457.9582646671
 20
-190.607001152
 10
459.8497957411
 20
-192.5932647365
 10
461.5215520846
 20
-194.6441734714
 10
462.966936039
 20
-196.751633357
 10
464.1802433342
 20
-198.9073272119
 10
465.1566856005
 20
-201.1027474972
 10
465.8924092666
 20
-203.3292298921
 10
466.3845107671
 20
-205.5779874877
 10
466.6310480022
 20
-207.8401454653
 10
466.6618879794
 20
-208.973460793
  0
LWPOLYLINE
  5
EB
330
1F
100
AcDbEntity
  8
0
  6
Continuous
 62
     1
370
    25
100
AcDbPolyline
 90
       39
 70
   128
 43
0.0
 10
341.6618879794
 20
-208.973460793
 10
341.6927279565
 20
-207.8401454653
 10
341.9392651917
 20
-205.5779874877
 10
342.4313666922
 20
-203.3292298921
 10
343.1670903582
 20
-201.1027474972
 10
344.1435326246
 20
-198.9073272119
 10
345.3568399197
 20
-196.751633357
 10
346.8022238741
 20
-194.6441734714
 10
348.4739802176
 20
-192.5932647365
 10
350.3655112916
 20
-190.607001152
 10
352.4693520872
 20
-188.6932215929
 10
354.7771997059
 20
-186.8594788727
 10
357.2799461275
 20
-185.1130099362
 10
359.9677141552
 20
-183.4607072985
 10
362.8298963966
 20
-181.9090918431
 10
365.8551971261
 20
-180.4642870875
 10
369.0316768636
 20
-179.1319950159
 10
372.346799495
 20
-177.9174735764
 10
375.7874817456
 20
-176.8255159303
 10
379.3401448147
 20
-175.8604315356
 10
382.990767964
 20
-175.0260291395
 10
386.7249438519
 20
-174.325601747
 10
390.5279353921
 20
-173.7619136251
 10
394.3847339143
 20
-173.3371893932
 10
398.280118397
 20
-173.0531052439
 10
402.198715537
 20
-172.9107823275
 10
406.1250604217
 20
-172.9107823275
 10
410.0436575618
 20
-173.0531052439
 10
413.9390420444
 20
-173.3371893932
 10
417.7958405666
 20
-173.7619136251
 10
421.5988321068
 20
-174.325601747
 10
425.3330079947
 20
-175.0260291395
 10
428.983631144
 20
-175.8604315356
 10
432.5362942131
 20
-176.8255159303
 10
435.9769764638
 20
-177.9174735764
 10
439.2920990951
 20
-179.1319950159
 10
442.4685788327
 20
-180.4642870875
 10
445.4938795621
 20
-181.9090918431
 10
448.3560618035
 20
-183.4607072985
  0
ENDSEC
  0
SECTION
  2
OBJECTS
  0
DICTIONARY
  5
C
330
0
100
AcDbDictionary
281
     1
  3
ACAD_GROUP
350
D
  3
ACAD_LAYOUT
350
1A
  3
ACAD_MLINESTYLE
350
17
  3
ACAD_PLOTSETTINGS
350
19
  3
ACAD_PLOTSTYLENAME
350
E
  3
ACAD_SCALELIST
350
47
  3
DWGPROPS
350
EC
  0
DICTIONARY
  5
D
102
{ACAD_REACTORS
330
C
102
}
330
C
100
AcDbDictionary
281
     1
  0
DICTIONARY
  5
1A
102
{ACAD_REACTORS
330
C
102
}
330
C
100
AcDbDictionary
281
     1
  3
Layout1
350
1E
  3
Layout2
350
26
  3
Model
350
22
  0
DICTIONARY
  5
17
102
{ACAD_REACTORS
330
C
102
}
330
C
100
AcDbDictionary
281
     1
  3
Standard
350
18
  0
DICTIONARY
  5
19
102
{ACAD_REACTORS
330
C
102
}
330
C
100
AcDbDictionary
281
     1
  0
ACDBDICTIONARYWDFLT
  5
E
102
{ACAD_REACTORS
330
C
102
}
330
C
100
AcDbDictionary
281
     1
  3
Normal
350
F
100
AcDbDictionaryWithDefault
340
F
  0
DICTIONARY
  5
47
102
{ACAD_REACTORS
330
C
102
}
330
C
100
AcDbDictionary
281
     1
  3
A0
350
48
  3
A1
350
49
  3
A2
350
4A
  3
A3
350
4B
  3
A4
350
4C
  3
A5
350
4D
  3
A6
350
4E
  3
A7
350
4F
  3
A8
350
50
  3
A9
350
51
  3
B0
350
52
  3
B1
350
53
  3
B2
350
54
  3
B3
350
55
  3
B4
350
56
  3
B5
350
57
  3
B6
350
58
  3
B7
350
59
  3
B8
350
5A
  3
B9
350
5B
  3
C0
350
5C
  3
C1
350
5D
  3
C2
350
5E
  3
C3
350
5F
  3
C4
350
60
  3
C5
350
61
  3
C6
350
62
  3
C7
350
63
  3
C8
350
64
  3
C9
350
65
  3
D0
350
66
  3
D1
350
67
  3
D2
350
68
  0
XRECORD
  5
EC
102
{ACAD_REACTORS
330
C
102
}
330
C
100
AcDbXrecord
280
     1
  1
DWGPROPS COOKIE
  2

  3

  4

  6

  7

  8
b.kav
  9

300
=
301
=
302
=
303
=
304
=
305
=
306
=
307
=
308
=
309
=
 40
0.0
 41
2459935.574359259
 42
2459935.574359433
  1

 90
        0
  0
LAYOUT
  5
1E
102
{ACAD_REACTORS
330
1A
102
}
330
1A
100
AcDbPlotSettings
  1

  2
none_device
  4

  6

 40
0.0
 41
0.0
 42
0.0
 43
0.0
 44
0.0
 45
0.0
 46
0.0
 47
0.0
 48
0.0
 49
0.0
140
0.0
141
0.0
142
1.0
143
1.0
 70
   688
 72
     1
 73
     0
 74
     5
  7

 75
    16
147
1.0
148
0.0
149
0.0
100
AcDbLayout
  1
Layout1
 70
     1
 71
     1
 10
0.0
 20
0.0
 11
420.0
 21
297.0
 12
0.0
 22
0.0
 32
0.0
 14
1.0000000000E+20
 24
1.0000000000E+20
 34
1.0000000000E+20
 15
-1.0000000000E+20
 25
-1.0000000000E+20
 35
-1.0000000000E+20
146
0.0
 13
0.0
 23
0.0
 33
0.0
 16
1.0
 26
0.0
 36
0.0
 17
0.0
 27
1.0
 37
0.0
 76
     0
330
1B
  0
LAYOUT
  5
26
102
{ACAD_REACTORS
330
1A
102
}
330
1A
100
AcDbPlotSettings
  1

  2
none_device
  4

  6

 40
0.0
 41
0.0
 42
0.0
 43
0.0
 44
0.0
 45
0.0
 46
0.0
 47
0.0
 48
0.0
 49
0.0
140
0.0
141
0.0
142
1.0
143
1.0
 70
   688
 72
     1
 73
     0
 74
     5
  7

 75
    16
147
1.0
148
0.0
149
0.0
100
AcDbLayout
  1
Layout2
 70
     1
 71
     2
 10
0.0
 20
0.0
 11
0.0
 21
0.0
 12
0.0
 22
0.0
 32
0.0
 14
0.0
 24
0.0
 34
0.0
 15
0.0
 25
0.0
 35
0.0
146
0.0
 13
0.0
 23
0.0
 33
0.0
 16
1.0
 26
0.0
 36
0.0
 17
0.0
 27
1.0
 37
0.0
 76
     0
330
23
  0
LAYOUT
  5
22
102
{ACAD_REACTORS
330
1A
102
}
330
1A
100
AcDbPlotSettings
  1

  2
none_device
  4
Letter_(8.50_x_11.00_Inches)
  6

 40
6.35
 41
6.35
 42
6.35000508
 43
6.35000508
 44
215.9
 45
279.4
 46
0.0
 47
0.0
 48
0.0
 49
0.0
140
0.0
141
0.0
142
1.0
143
1.0
 70
  1712
 72
     1
 73
     0
 74
     0
  7

 75
     0
147
1.0
148
0.0
149
0.0
100
AcDbLayout
  1
Model
 70
     1
 71
     0
 10
0.0
 20
0.0
 11
279.4
 21
215.9
 12
0.0
 22
0.0
 32
0.0
 14
0.0
 24
0.0
 34
0.0
 15
279.4
 25
215.9
 35
0.0
146
0.0
 13
0.0
 23
0.0
 33
0.0
 16
1.0
 26
0.0
 36
0.0
 17
0.0
 27
1.0
 37
0.0
 76
     0
330
1F
331
29
  0
MLINESTYLE
  5
18
102
{ACAD_REACTORS
330
17
102
}
330
17
100
AcDbMlineStyle
  2
Standard
 70
     0
  3

 62
   256
 51
90.0
 52
90.0
 71
     2
 49
0.5
 62
   256
  6
BYLAYER
 49
-0.5
 62
   256
  6
BYLAYER
  0
ACDBPLACEHOLDER
  5
F
102
{ACAD_REACTORS
330
E
102
}
330
E
  0
SCALE
  5
48
102
{ACAD_REACTORS
330
47
102
}
330
47
100
AcDbScale
 70
     0
300
1:1
140
1.0
141
1.0
290
     1
  0
SCALE
  5
49
102
{ACAD_REACTORS
330
47
102
}
330
47
100
AcDbScale
 70
     0
300
1:2
140
1.0
141
2.0
290
     0
  0
SCALE
  5
4A
102
{ACAD_REACTORS
330
47
102
}
330
47
100
AcDbScale
 70
     0
300
1:4
140
1.0
141
4.0
290
     0
  0
SCALE
  5
4B
102
{ACAD_REACTORS
330
47
102
}
330
47
100
AcDbScale
 70
     0
300
1:5
140
1.0
141
5.0
290
     0
  0
SCALE
  5
4C
102
{ACAD_REACTORS
330
47
102
}
330
47
100
AcDbScale
 70
     0
300
1:8
140
1.0
141
8.0
290
     0
  0
SCALE
  5
4D
102
{ACAD_REACTORS
330
47
102
}
330
47
100
AcDbScale
 70
     0
300
1:10
140
1.0
141
10.0
290
     0
  0
SCALE
  5
4E
102
{ACAD_REACTORS
330
47
102
}
330
47
100
AcDbScale
 70
     0
300
1:16
140
1.0
141
16.0
290
     0
  0
SCALE
  5
4F
102
{ACAD_REACTORS
330
47
102
}
330
47
100
AcDbScale
 70
     0
300
1:20
140
1.0
141
20.0
290
     0
  0
SCALE
  5
50
102
{ACAD_REACTORS
330
47
102
}
330
47
100
AcDbScale
 70
     0
300
1:30
140
1.0
141
30.0
290
     0
  0
SCALE
  5
51
102
{ACAD_REACTORS
330
47
102
}
330
47
100
AcDbScale
 70
     0
300
1:40
140
1.0
141
40.0
290
     0
  0
SCALE
  5
52
102
{ACAD_REACTORS
330
47
102
}
330
47
100
AcDbScale
 70
     0
300
1:50
140
1.0
141
50.0
290
     0
  0
SCALE
  5
53
102
{ACAD_REACTORS
330
47
102
}
330
47
100
AcDbScale
 70
     0
300
1:100
140
1.0
141
100.0
290
     0
  0
SCALE
  5
54
102
{ACAD_REACTORS
330
47
102
}
330
47
100
AcDbScale
 70
     0
300
2:1
140
2.0
141
1.0
290
     0
  0
SCALE
  5
55
102
{ACAD_REACTORS
330
47
102
}
330
47
100
AcDbScale
 70
     0
300
4:1
140
4.0
141
1.0
290
     0
  0
SCALE
  5
56
102
{ACAD_REACTORS
330
47
102
}
330
47
100
AcDbScale
 70
     0
300
8:1
140
8.0
141
1.0
290
     0
  0
SCALE
  5
57
102
{ACAD_REACTORS
330
47
102
}
330
47
100
AcDbScale
 70
     0
300
10:1
140
10.0
141
1.0
290
     0
  0
SCALE
  5
58
102
{ACAD_REACTORS
330
47
102
}
330
47
100
AcDbScale
 70
     0
300
100:1
140
100.0
141
1.0
290
     0
  0
SCALE
  5
59
102
{ACAD_REACTORS
330
47
102
}
330
47
100
AcDbScale
 70
     0
300
1/128" = 1'-0"
140
0.0078125
141
12.0
290
     0
  0
SCALE
  5
5A
102
{ACAD_REACTORS
330
47
102
}
330
47
100
AcDbScale
 70
     0
300
1/64" = 1'-0"
140
0.015625
141
12.0
290
     0
  0
SCALE
  5
5B
102
{ACAD_REACTORS
330
47
102
}
330
47
100
AcDbScale
 70
     0
300
1/32" = 1'-0"
140
0.03125
141
12.0
290
     0
  0
SCALE
  5
5C
102
{ACAD_REACTORS
330
47
102
}
330
47
100
AcDbScale
 70
     0
300
1/16" = 1'-0"
140
0.0625
141
12.0
290
     0
  0
SCALE
  5
5D
102
{ACAD_REACTORS
330
47
102
}
330
47
100
AcDbScale
 70
     0
300
3/32" = 1'-0"
140
0.09375
141
12.0
290
     0
  0
SCALE
  5
5E
102
{ACAD_REACTORS
330
47
102
}
330
47
100
AcDbScale
 70
     0
300
1/8" = 1'-0"
140
0.125
141
12.0
290
     0
  0
SCALE
  5
5F
102
{ACAD_REACTORS
330
47
102
}
330
47
100
AcDbScale
 70
     0
300
3/16" = 1'-0"
140
0.1875
141
12.0
290
     0
  0
SCALE
  5
60
102
{ACAD_REACTORS
330
47
102
}
330
47
100
AcDbScale
 70
     0
300
1/4" = 1'-0"
140
0.25
141
12.0
290
     0
  0
SCALE
  5
61
102
{ACAD_REACTORS
330
47
102
}
330
47
100
AcDbScale
 70
     0
300
3/8" = 1'-0"
140
0.375
141
12.0
290
     0
  0
SCALE
  5
62
102
{ACAD_REACTORS
330
47
102
}
330
47
100
AcDbScale
 70
     0
300
1/2" = 1'-0"
140
0.5
141
12.0
290
     0
  0
SCALE
  5
63
102
{ACAD_REACTORS
330
47
102
}
330
47
100
AcDbScale
 70
     0
300
3/4" = 1'-0"
140
0.75
141
12.0
290
     0
  0
SCALE
  5
64
102
{ACAD_REACTORS
330
47
102
}
330
47
100
AcDbScale
 70
     0
300
1" = 1'-0"
140
1.0
141
12.0
290
     0
  0
SCALE
  5
65
102
{ACAD_REACTORS
330
47
102
}
330
47
100
AcDbScale
 70
     0
300
1-1/2" = 1'-0"
140
1.5
141
12.0
290
     0
  0
SCALE
  5
66
102
{ACAD_REACTORS
330
47
102
}
330
47
100
AcDbScale
 70
     0
300
3" = 1'-0"
140
3.0
141
12.0
290
     0
  0
SCALE
  5
67
102
{ACAD_REACTORS
330
47
102
}
330
47
100
AcDbScale
 70
     0
300
6" = 1'-0"
140
6.0
141
12.0
290
     0
  0
SCALE
  5
68
102
{ACAD_REACTORS
330
47
102
}
330
47
100
AcDbScale
 70
     0
300
1'-0" = 1'-0"
140
12.0
141
12.0
290
     0
  0
ENDSEC
  0
EOF
